Nirvana Türkiye


 
AnasayfaPortalGaleriKayıt OlGiriş yap

Paylaş
 

 About A Girl

Aşağa gitmek 
YazarMesaj
Megadethian
Admin
Admin
Megadethian

Erkek
Mesaj Sayısı : 490
Yaş : 26
Burç : Akrep
Nereden : KOCAELİ
Favori Üyeniz : Dave Grohl
Rep :
About A Girl Left_bar_bleue5 / 1005 / 100About A Girl Right_bar_bleue

Kayıt tarihi : 29/07/08

About A Girl Empty
MesajKonu: About A Girl   About A Girl EmptyÇarş. Ağus. 13, 2008 3:05 am

Tune down 1/2 step:(low to high) Eb-Ab-Db-Gb-Bb-Eb

Em(022X00)
Em11(000000)
G(3X0000)
C#(X4666X)
F#(244XXX)
E(022100)
A(022200)
G#(4666XX)
C(X3555X)

IF YOU WANT YOU CAN JUST PLAY THE NOTES ABOVE, IT ACTUALLY SOUNDS BETTER TO ME

Intro--Rhy. Fig. 1 End Rhy. Fig.1

Em Em11 G Em Em11 G Em Em11 G
--0---0--0-------3--0----------0----------3--0------|--0-----0------3--0-----
--0---0--0-------0--0--0-------0--0-------0--0--0---|--0-----0------0--0--0--
--X---X--0----------0--0----------0----0-----0--0---|--X-----0---0--0--0--0--
--2---2--0----------0--0----------0----0-----0--0---|--2--2--0---0-----0--0--
--2---2--0----------X------2------0----X-----X--0---|2----2--0---X-----X--0--
--0---0--0----3-----3------0------0----3-----3------|0-----0------3-----3---- Rhy. Fig. 1 ends at Line

Em Em11 G Em Em11 G Em Em11 G Em Em11 G
--0---0--0-------3--0----------0----------3--0------0---0--0-------3--0-----------0----------3--0----
--0---0--0-------0--0--0-------0--0-------0--0--0---0---0--0-------0--0--0--------0--0-------0--0--0-
--X---X--0----------0--0----------0----0-----0--0---X---X--0----------0--0-----------0----0-----0--0-
--2---2--0----------0--0----------0----0-----0--0---2---2--0----------0--0-----------0----0-----0--0-
--2---2--0----------X------2------0----X-----X--0---2---2--0----------X-------2------0----X-----X--0-
--0---0--0----3-----3------0------0----3-----3------0---0--0----3-----3-------0------0----3-----3----

Verse-Play Rhy. Fig. 1 4 times

Chorus
C# F# C# F# E Em E Em
---------------------0-------0--0-----0--0--0----------------------0------0--0-----0--0--0---0---0--0-----0--0--0
--6---6--6-----6--6--0-------0--0-----0--0--0---6---6--6-----6--6--0------0--0-----0--0--0---0---0--0-----0--0--0
--6---6--6-----6--6----------3--3-----3--3------6---6--6-----6--6---------3--3-----3--3------1---X--X------------
--6---6--6-----6--6-----4----4--4-----4--4------6---6--6-----6--6-----4---4--4-----4--4------2---2--2------------
--4---4--4--------------4----------4------------4---4--4--------------4---------4------------2---2--2--2---------
------------4-----------2----------2----------------------4-----------2---------2------------0---0--0--0---------

A C Em11
--0--0--0-----------------
--2--2--2--5----5--5---0--
--2--2--2--5----5--5---0--
--2-----2--5----5--5---0--
--0-----0--3----3--3------
-------------------------- and then go straight into Rhy. Fig. 1- 2 times

Verse-Rhy. Fig. 1-4 times

Chorus

Solo-If you want, you can just play Rhy. Fig. 1-4 times
---------------------------------------------------------------------------------------------------------------
---------------------------9/12--12--12-----------------------------9-----12-----12------------------------7/9-
---------------7---7/9-----9/12--12--12---------------7--7--7/9-----9-----12-----12------------------7--7--7/9-
------------5--7---7/9--9--9/12--12--12------------5--7--7--7/9-----9-----12-----12---------------5--7--7--7/9-
------5--7-----------------------------------5--7----------------0-----0------0------0------5--7---------------
---0--------------------------------------0----------------------------------------------0---------------------

---------------------------------------------------------------
----9---12------12---------------------7/9--9--9--9/12--12--12-
-9--9---12--12--12---------------------7/9--9--9--9/12--12--12-
-9--9---12--12--12------------5--7--7--7/9--9--9--9/12--12--12-
------------------------5--7-----------------------------------
---------------------0-----------------------------------------
then its- C# G# F# C# G# F# Em G D C Em Em11 G Em11 Em Em11 G Em11 Em Em11 G Em11 Em Em11 G Em11 then verse
Sayfa başına dön Aşağa gitmek
Kullanıcı profilini gör http://www.nirvanatr.yetkin-forum.com
 
About A Girl
Sayfa başına dön 
1 sayfadaki 1 sayfası

Bu forumun müsaadesi var:Bu forumdaki mesajlara cevap veremezsiniz
Nirvana Türkiye :: Nirvana Akor ve Tablar :: Tablar-
Buraya geçin: