Nirvana Türkiye


 
AnasayfaPortalGaleriKayıt OlGiriş yap

Paylaş
 

 Smells Like teen Spirit

Aşağa gitmek 
YazarMesaj
Junior Cobain
Kurucu
Kurucu
Junior Cobain

Erkek
Mesaj Sayısı : 397
Yaş : 26
Burç : Lpg
Rep :
Smells Like teen Spirit Left_bar_bleue0 / 1000 / 100Smells Like teen Spirit Right_bar_bleue

Kayıt tarihi : 28/07/08

Smells Like teen Spirit Empty
MesajKonu: Smells Like teen Spirit   Smells Like teen Spirit EmptyÇarş. Ağus. 13, 2008 3:05 am

Main line: Riff:
2x w/o distortion.
4x with distortion + chorus)
e------------------------------------ ---1------
a------------------------------------ -1--------
d-------------3-3---------------6-6-- ----------
g--3-3-3-xxxx-3-3----6-6-6-xxxx-6-6-- ----------
b--3-3-3-xxxx-1-1----6-6-6-xxxx-4-4-- ----------
E--1-1-1-xxxx--------4-4-4-xxxx------ ----------

"Solo": 2x. . .
e-------------------------------------------------------
a--1--4--4/6-----4b6b4--2--1--2--1----------------------
d-------------1---------------------3--1--3b5b3--1--0---
g-------------------------------------------------------
b-------------------------------------------------------
E-------------------------------------------------------

. . .to 4x:
e--------------------------------
a--------------------------------
d---1-0---1-0---1-0---1p0--------
g---------------------------3----
b--------------------------------
E--------------------------------

_________________
Smells Like teen Spirit Inflames2k8
Sayfa başına dön Aşağa gitmek
Kullanıcı profilini gör http://nirvanatr.yetkin-forum.com
T0[X]iT

T0[X]iT

Erkek
Mesaj Sayısı : 25
Yaş : 25
Rep :
Smells Like teen Spirit Left_bar_bleue0 / 1000 / 100Smells Like teen Spirit Right_bar_bleue

Kayıt tarihi : 13/08/08

Smells Like teen Spirit Empty
MesajKonu: Geri: Smells Like teen Spirit   Smells Like teen Spirit EmptyÇarş. Ağus. 13, 2008 6:07 am

ahh ahh gitardan ilham alamıorum artık çalasım yok yinede saol
Sayfa başına dön Aşağa gitmek
Kullanıcı profilini gör
 
Smells Like teen Spirit
Sayfa başına dön 
1 sayfadaki 1 sayfası

Bu forumun müsaadesi var:Bu forumdaki mesajlara cevap veremezsiniz
Nirvana Türkiye :: Nirvana Akor ve Tablar :: Tablar-
Buraya geçin: