Nirvana Türkiye


 
AnasayfaPortalGaleriKayıt OlGiriş yap

Paylaş
 

 In Bloom

Aşağa gitmek 
YazarMesaj
Junior Cobain
Kurucu
Kurucu
Junior Cobain

Erkek
Mesaj Sayısı : 397
Yaş : 26
Burç : Lpg
Rep :
In Bloom Left_bar_bleue0 / 1000 / 100In Bloom Right_bar_bleue

Kayıt tarihi : 28/07/08

In Bloom Empty
MesajKonu: In Bloom   In Bloom EmptyÇarş. Ağus. 13, 2008 3:05 am

Bb G F G# Bb G F G#
E -----------------------------------------------------------
B -----------------------------------------------------------
G -3--3-3-----------------------------3--3-3-----------------
D -3--3-3--5----3--3-3--6-------------3--3-3--5----3--3-3--6- (drum fill)
A -1--1-1--5----3--3-3--6-------------1--1-1--5----3--3-3--6-
E ---------3----1--1-1--4----4-1-4-5----------3----1--1-1--4-

Bb F# Eb B A
E --------------------------------------------------------
B ---------------------------/8-8---8\--------------------
G ---------------------------/8-8---8\--x-8--------------- (x2)
D -8-8--8\-x--\4-4-4-4-4--x--/8-8---8\--x-89-9-9-9---7--7-
A -8-8--8\-x--\4-4-4-4-4--x--/6-6---6\--x-69-9-9-9---7--7-
E -6-6--6\-x--\2-2-2-2-2--x--/6------------7-7-7-7---5--5-


Sell the kids for food
Weather changes moods

e -1---1-1-xx2---2-2-xx3---3-3----------
b -3---3-3-xx2---2-2-xx4---4-4-xx4---2--
g -3---3-3-xx3---3-3-xx3---3-3-xx4---2--
d -3---3-3-xx4---4-4-xx1---1-1-xx4---2--
a --------------------------------------
E --------------------------------------

_________________
In Bloom Inflames2k8
Sayfa başına dön Aşağa gitmek
Kullanıcı profilini gör http://nirvanatr.yetkin-forum.com
 
In Bloom
Sayfa başına dön 
1 sayfadaki 1 sayfası

Bu forumun müsaadesi var:Bu forumdaki mesajlara cevap veremezsiniz
Nirvana Türkiye :: Nirvana Akor ve Tablar :: Tablar-
Buraya geçin: