Nirvana Türkiye


 
AnasayfaPortalGaleriKayıt OlGiriş yap

Paylaş
 

 Breed

Aşağa gitmek 
YazarMesaj
Mark Morton
Admin
Admin
Mark Morton

Erkek
Mesaj Sayısı : 470
Yaş : 26
Burç : Akrep
Nereden : KOCAELİ
Favori Üyeniz : Dave Grohl
Rep :
Breed Left_bar_bleue75 / 10075 / 100Breed Right_bar_bleue

Kayıt tarihi : 29/07/08

Breed Empty
MesajKonu: Breed   Breed EmptyÇarş. Ağus. 13, 2008 7:09 am

INTRO
-----------------------------------------------------------------------
-----------------------------------------------------------------------
-----------------------------------------------------------------------
---4--4--4--4-/-7--2----4--4--4--4-/-7--2------------------------------
---4--4--4--4-/-7--2----4--4--4--4-/-7--2------------------------------
---2--2--0--2-/-5--0----2--2--0--2-/-5--0------------------------------

VERSE
-----------------------------------------------------------------------
-----------------------------------------------------------------------
---11--11--11--11--11--11--11--11--11--11--11--------------------------
---11--11--11--11--11--11--11--11--11--11--11--------------------------
---9---9---9---9---9---9---9---9---9---9---9---9--9--7-----------------
-----------------------------------------------------------------------
chorus
-----------------------------------------------------------------------
-----------------------------------------------------------------------
---7--7-----------5--5--4--4--4---7--7-----------5--5--4--4--4---------
---7--7--7--7--7--5--5--4--4--4---7--7--7--7--7--5--5--4--4--4---------
---5--5--7--7--7--3--3--2--2--2---5--5--7--7--7--3--3--2--2--2---------
---------5--5--5------------------------5--5--5------------------------

PART 1
-----------------------------------------------------------------------
-----------------------------------------------------------------------
-----------------------------------------------------------------------
---4--4--4--4-/-7-------4--4--4--4-/-7---------------------------------
---4--4--4--4-/-7-------4--4--4--4-/-7---------------------------------
---2--2--0--2-/-5--0----2--2--0--2-/-5--0------------------------------

SOLO
-----------------------------------------------------------------------
-----------------------------------------------------------------------
----11--11--11--11--11--11--11--11--11--11--11-------------------------
----11--11--11--11--11--11--11--11--11--11--11-------------------------
----9---9---9---9---9---9---9---9---9---9---9--------------------------
-----------------------------------------------------------------------

-----------------------------------------------------------------------
-----------------------------------------------------------------------
---14--14--14--14--14--14--14--14--14--14--14---13---12---12-----------
---14--14--14--14--14--14--14--14--14--14--14---13---12---12-----------
---12--12--12--12--12--12--12--12--12--12--12---11---10---10-----------
-----------------------------------------------------------------------

-----------------------------------------------------------------------
-----------------------------------------------------------------------
---17--17--17--17--17--17--17--17--17--17--17----16---15---14----------
---17--17--17--17--17--17--17--17--17--17--17----16---15---14----------
---15--15--15--15--15--15--15--15--15--15--15----14---13---12----------
-----------------------------------------------------------------------

-----------------------------------------------------------------------
-----------------------------------------------------------------------
----19--19--19--19--19--19--19--19--19--19--19----17----15----14-------
----19--19--19--19--19--19--19--19--19--19--19----17----15----14-------
----17--17--17--17--17--17--17--17--17--17--17----15----13----12-------
-----------------------------------------------------------------------
Sayfa başına dön Aşağa gitmek
Kullanıcı profilini gör http://www.nirvanafan.tr.cx
 
Breed
Sayfa başına dön 
1 sayfadaki 1 sayfası

Bu forumun müsaadesi var:Bu forumdaki mesajlara cevap veremezsiniz
Nirvana Türkiye :: Nirvana Akor ve Tablar :: Tablar-
Buraya geçin: