Nirvana Türkiye


 
AnasayfaPortalGaleriKayıt OlGiriş yap

Paylaş
 

 Love Buzz

Aşağa gitmek 
YazarMesaj
Mark Morton
Admin
Admin
Mark Morton

Erkek
Mesaj Sayısı : 470
Yaş : 26
Burç : Akrep
Nereden : KOCAELİ
Favori Üyeniz : Dave Grohl
Rep :
Love Buzz Left_bar_bleue75 / 10075 / 100Love Buzz Right_bar_bleue

Kayıt tarihi : 29/07/08

Love Buzz Empty
MesajKonu: Love Buzz   Love Buzz EmptyÇarş. Ağus. 13, 2008 7:11 am

Intro/Verse

|--------------6(7)6--------------6(7)6---
|--7--5--7--8---------7--5--7--8----------
|-----------------------------------------
|-----------------------------------------
Would you believe me...


|-----7-----------7-----------7---7-8-8/10-8-7-------
|---8---8-6-8-6-8---8-6-8-6-8---8--------------8-6-8-
|----------------------------------------------------
|----------------------------------------------------

|------------------------------------------------
|------------------------------------------------
|------------5---------------------5-------------
|---1--4--6-----6--4--6---1--4--6-----6--4--6----
Sayfa başına dön Aşağa gitmek
Kullanıcı profilini gör http://www.nirvanafan.tr.cx
 
Love Buzz
Sayfa başına dön 
1 sayfadaki 1 sayfası

Bu forumun müsaadesi var:Bu forumdaki mesajlara cevap veremezsiniz
Nirvana Türkiye :: Nirvana Akor ve Tablar :: Akorlar-
Buraya geçin: