Nirvana Türkiye


 
AnasayfaPortalGaleriKayıt OlGiriş yap

Paylaş
 

 Been A Son-live

Aşağa gitmek 
YazarMesaj
Megadethian
Admin
Admin
Megadethian

Erkek
Mesaj Sayısı : 490
Yaş : 26
Burç : Akrep
Nereden : KOCAELİ
Favori Üyeniz : Dave Grohl
Rep :
Been A Son-live Left_bar_bleue5 / 1005 / 100Been A Son-live Right_bar_bleue

Kayıt tarihi : 29/07/08

Been A Son-live Empty
MesajKonu: Been A Son-live   Been A Son-live EmptySalı Ağus. 26, 2008 9:03 am

Intro
---------------------------------------------------------------
--3--3--3-------3---3-3----------3--3--3-------3---3-3---------
--2--2--2-------2---2-2-0--------2--2--2-------2---2-2-0-------
--0--0--0-------0---0-0-0--------0--0--0-------0---0-0-0-------
----------3-2-0---------0-3-2-0----------3-2-0---------0-3-2-0-
---------------------------------------------------------------

Verse
---------------------------------------------------------------
--3--3--3-------3---3-3----------3--3--3-------3---3-3---------
--2--2--2-------2---2-2-0--------2--2--2-------2---2-2-0-------
--0--0--0-------0---0-0-0--------0--0--0-------0---0-0-0-------
----------3-2-0---------0-3-2-0----------3-2-0---------0-3-2-0-
---------------------------------------------------------------

---------------------------------------------------------------
--3--3--3-------3---3-3----------3--3--3-------3---3-3---------
--2--2--2-------2---2-2-0--------2--2--2-------2---2-2-0-------
--0--0--0-------0---0-0-0--------0--0--0-------0---0-0-0-------
----------3-2-0---------0-3-2-0----------3-2-0---------0-3-2-0-
---------------------------------------------------------------

--------------
--3--3--------
--2--2-------0
--0--0-------0
--0--0-3-2-0-0
--------------

Chorus
---------------------------------------------------------------------------------------------
---------------------------------------------------------------------------------------------
--0--0------------------------0--0--0-----------------------0---0--0-----------------------0-
--0--0------------------------0--0--0-----------------------0---0--0-----------------------0-
--X--X---3--3--2---0-2-3-2-0-----X--X-2-3--3--2--0-2-3-2-0------X--X-2-3--3--2--0-2-3-2-0----
--3--3-0-1--1--0-----------------3--3-0-1--1--0-----------------3--3-0-1--1--0---------------

-------------------------------------------
-------------------------------------------
--0--0--------------------------0--0--0--0-
--0--0--------------------------0--0--0--0-
--X--X-2-3--3--2--2--2----2--2-------------
--3--3-0-1--1--0--0--0----0--0-------------

Verse
---------------------------------------------------------------
--3--3--3-------3---3-3----------3--3--3-------3---3-3---------
--2--2--2-------2---2-2-0--------2--2--2-------2---2-2-0-------
--0--0--0-------0---0-0-0--------0--0--0-------0---0-0-0-------
----------3-2-0---------0-3-2-0----------3-2-0---------0-3-2-0-
---------------------------------------------------------------

---------------------------------------------------------------
--3--3--3-------3---3-3----------3--3--3-------3---3-3---------
--2--2--2-------2---2-2-0--------2--2--2-------2---2-2-0-------
--0--0--0-------0---0-0-0--------0--0--0-------0---0-0-0-------
----------3-2-0---------0-3-2-0----------3-2-0---------0-3-2-0-
---------------------------------------------------------------

--------------
--3--3--------
--2--2-------0
--0--0-------0
--0--0-3-2-0-0
--------------

Chorus
---------------------------------------------------------------------------------------------
---------------------------------------------------------------------------------------------
--0--0------------------------0--0--0-----------------------0---0--0-----------------------0-
--0--0------------------------0--0--0-----------------------0---0--0-----------------------0-
--X--X---3--3--2---0-2-3-2-0-----X--X-2-3--3--2--0-2-3-2-0------X--X-2-3--3--2--0-2-3-2-0----
--3--3-0-1--1--0-----------------3--3-0-1--1--0-----------------3--3-0-1--1--0---------------

-------------------------------------
-------------------------------------
--0--0-------------------------------
--0--0-------------------------------
--X--X-2-3--3--2--2--2----2--2--2--2-
--3--3-0-1--1--0--0--0----0--0--0--0-

Interlude
---------------------------------------------------------------
--3--3--3-------3---3-3----------3--3--3-------3---3-3---------
--2--2--2-------2---2-2-0--------2--2--2-------2---2-2-0-------
--0--0--0-------0---0-0-0--------0--0--0-------0---0-0-0-------
----------3-2-0---------0-3-2-0----------3-2-0---------0-3-2-0-
---------------------------------------------------------------

---------------------------------------------------------------
--3--3--3-------3---3-3----------3--3--3-------3---3-3---------
--2--2--2-------2---2-2-0--------2--2--2-------2---2-2-0-------
--0--0--0-------0---0-0-0--------0--0--0-------0---0-0-0-------
----------3-2-0---------0-3-2-0----------3-2-0---------0-3-2-0-
---------------------------------------------------------------

Chorus
---------------------------------------------------------------------------------------------
---------------------------------------------------------------------------------------------
--0--0------------------------0--0--0-----------------------0---0--0-----------------------0-
--0--0------------------------0--0--0-----------------------0---0--0-----------------------0-
--X--X---3--3--2---0-2-3-2-0-----X--X-2-3--3--2--0-2-3-2-0------X--X-2-3--3--2--0-2-3-2-0----
--3--3-0-1--1--0-----------------3--3-0-1--1--0-----------------3--3-0-1--1--0---------------

-------------------------------------------
-------------------------------------------
--0--0--------------------------0--0--0--0-
--0--0--------------------------0--0--0--0-
--X--X-2-3--3--2--2--2----2--2-------------
--3--3-0-1--1--0--0--0----0--0-------------

Verse
---------------------------------------------------------------
--3--3--3-------3---3-3----------3--3--3-------3---3-3---------
--2--2--2-------2---2-2-0--------2--2--2-------2---2-2-0-------
--0--0--0-------0---0-0-0--------0--0--0-------0---0-0-0-------
----------3-2-0---------0-3-2-0----------3-2-0---------0-3-2-0-
---------------------------------------------------------------

---------------------------------------------------------------
--3--3--3-------3---3-3----------3--3--3-------3---3-3---------
--2--2--2-------2---2-2-0--------2--2--2-------2---2-2-0-------
--0--0--0-------0---0-0-0--------0--0--0-------0---0-0-0-------
----------3-2-0---------0-3-2-0----------3-2-0---------0-3-2-0-
---------------------------------------------------------------

--------------
--3--3--------
--2--2-------0
--0--0-------0
--0--0-3-2-0-0
--------------

Outro-Chorus
---------------------------------------------------------------------------------------------
---------------------------------------------------------------------------------------------
--0--0------------------------0--0--0-----------------------0---0--0-----------------------0-
--0--0------------------------0--0--0-----------------------0---0--0-----------------------0-
--X--X---3--3--2---0-2-3-2-0-----X--X-2-3--3--2--0-2-3-2-0------X--X-2-3--3--2--0-2-3-2-0----
--3--3-0-1--1--0-----------------3--3-0-1--1--0-----------------3--3-0-1--1--0---------------

----------------------------------------------------
-------0--0-----------------------------------------
-------0--0-----------------------------------------
--0----0----------------------------------------2-0-
--X----X-------3---3---3--2---------------------2-0-
--3----3-------1---1---1--0-------------------------

_________________
Been A Son-live Jamestimeline
Okul, okul, okul...(Açık hapishane)
Sayfa başına dön Aşağa gitmek
Kullanıcı profilini gör http://www.nirvanatr.yetkin-forum.com
 
Been A Son-live
Sayfa başına dön 
1 sayfadaki 1 sayfası

Bu forumun müsaadesi var:Bu forumdaki mesajlara cevap veremezsiniz
Nirvana Türkiye :: Nirvana Akor ve Tablar :: Tablar-
Buraya geçin: