Nirvana Türkiye


 
AnasayfaPortalGaleriKayıt OlGiriş yap

Paylaş
 

 Beeswax

Aşağa gitmek 
YazarMesaj
Megadethian
Admin
Admin
Megadethian

Erkek
Mesaj Sayısı : 490
Yaş : 26
Burç : Akrep
Nereden : KOCAELİ
Favori Üyeniz : Dave Grohl
Rep :
Beeswax Left_bar_bleue5 / 1005 / 100Beeswax Right_bar_bleue

Kayıt tarihi : 29/07/08

Beeswax Empty
MesajKonu: Beeswax   Beeswax EmptySalı Ağus. 26, 2008 9:03 am

Beeswax
e----------------------------------------------------------------------------
b----------------------------------------------------------------------------
g------------------------------10-6-----------------------------------------
d------------------------------10-6-----------------------------------------
a--98--8--8--7--7--76--65------------98--8--8--7--7--76--65---1--(1)^--
e--76--6--6--5--5--54--43------------76--6--6--5--5--54--43------------

e----------------------------------------------------------------------------
b------------------------------*------------------------------------*--------
g----------------------------------*-----------------------------------------
d----------------------------------------------------------------------------
a--98--8--8--7--7--76--65-----------98--8--8--7--7--76--65-------------
e--76--6--6--5--5--54--43-----------76--6--6--5--5--54--43-------------

verse
e----------------------------------------------------------------------------
b----------------------------------------------------------------------------
g-------------------------------/10---------------------------------/8/9-----
d-------------------------------/10---------------------------------/8/9-----
a--98--8--8--7--7--76--65-----------98--8--8--7--7--76--65-------------
e--76--6--6--5--5--54--43-----------76--6--6--5--5--54--43-------------

e----------------------------------------------------------------------------
b----------------------------------------------------------------------------
g-------------------------------/7--------------------------------7--7--7----
d-------------------------------/7--------------------------5--5--7--7--7--0-
a--98--8--8--7--7--76--65----------98--8--8--7--7--7----5--5--5--5--5--0-
e--76--6--6--5--5--54--43----------76--6--6--5--5--5/0--3--3-------------

chorus
e----------------------------------------------------------------------------
b----------------------------------------------------------------------------
g----------------------------------------------------------------------------
d--2----------------------------------2--------------------------------------
a--2------/7-----------------4--------2------/7-----------5------------------
e--0--3/------0--(0)--6---5-----3--0--0--3/------0--6--5-----3--0------------


e--------------------------------------------------------0-------------------
b--------------------------------------------------------0-------------------
g--------------------------------------------------------0-------------------
d--2--------------------------2--------------------------2-------------------
a--2-----/7-------------------2-----/7-------------------2-------------------
e--0--3------0--6--5--4--3/0--0--3------0--(0)--6--5--4--0-------------------


bridge
e----------------------------------------------------------------------------
b--------------------------------------------------------------------)--)----
g---------------------------)--)---------------------------2--2--2--2--2-----
d--3--3--3--3--x--2--2--2--2--2--2--2----3--3--3--3--2--2--------------------
a--3--3--3--3--x-------------------------3--3--3--3--------------------------
e--1--1--1--1--x-------------------------1--1--1--1--------------------------


e----------------------------------------------------------------------------
b----------------------------------------------------------------------------
g----------------------------------------------------------------------------
d--31-----------------------------------------------------------------------
a-------1--------------------------------------------------------------------
e----------3--2--------------------------------------------------------------

e----------------------------------------------------------------------------
b---------------------)--)---------------------------------------------------
g-----------------2--2--2--2------------------------------7--7--0------------
d--3--3--3--3--x---------------3--3--3--3--2--------5--5--7--7--0------------
a--3--3--3--3--x---------------3--3--3--3-----x--2--5--5--5--5--0------------
e--1--1--1--1--x---------------1--1--1--1-----------3--3--------0------------

_________________
Beeswax Jamestimeline
Okul, okul, okul...(Açık hapishane)
Sayfa başına dön Aşağa gitmek
Kullanıcı profilini gör http://www.nirvanatr.yetkin-forum.com
 
Beeswax
Sayfa başına dön 
1 sayfadaki 1 sayfası

Bu forumun müsaadesi var:Bu forumdaki mesajlara cevap veremezsiniz
Nirvana Türkiye :: Nirvana Akor ve Tablar :: Tablar-
Buraya geçin: